Learnin to Love
Ween
La Cucaracha


Chorus ("Learnin to Liiiiiiiiiive"): G G D G

Verse: D G D G D G .....

Other Part (dubla dubla ...): G G G G G G G D G

   G  G (Pull off)     D
e|-3--3----------------2---|
B|-3--3----------------3---|
G|---------------------2---|
D|-------------------------|
A|-2--2--------------------|
E|-3--2h3p0----------------|

___________________________________________________________________

Version 2...
          Bb      F        Bb       
Learnin' to Live, lovin' to learn.

  F              Bb          F                Bb
A handicap at my home turn.  Key horse on the highway.
F               Bb           F                 Bb
Laid off in the length.  The listed race was a long-shot.

F   F   Bb               
Dib-dib-doobaleb-a-....    x2

F                Bb             F               Bb
Park weed on the pace board.  A penalty for the point spread.
     F                Bb                  F                          Bb
went post time on the scratch sheet.  The rougher was a ringer and a return.

            Bb      F        Bb
Learnin' to Live, lovin' to learn.

F                   Bb             F                Bb
Still stakes on the short ride.  A spot play in the stretch turn.
  F                  Bb              F               Bb
A sure thing for the tipsters.  With true eyes on the weigh-in.

F   F   Bb               
Dib-dib-doobaleb-a-....    x3

SOLO
B|------------6-------------6-----/12-12-12-12-12----------------------------
G|------6-------6-------6-----6--------------------/10-10--9--8--6-6-8-6---6-
D|-6-8-----8------8-6-8---8-----8----------------------------------------8---

B|------------------------------------------------------------6-6-5-4---------------------------
G|-6----6---6---6---6--8----------------------------6-6-5-4-----------6-------------------------
D|---6h8-6h8-6h8-6h8-8--------------------------6-8---------8-----------8-8-7-6-----------------
A|---------------------------------4--5--6-7-8-----------------------------------8--8-8-7-6-4---
E|--------------------------3h4-6-------------------------------------------------------------6-

            Bb      F        Bb
Learnin' to Live, lovin' to learn.

  F                   Bb            F             Bb
A cup hold bet on the dead heap.  A bug boy ran a bull ring.
        F                 Bb             F                   B
There's dead track at the derby.  With a new forecast on the dime.

F   F   Bb               
Dib-dib-doobaleb-a-....    x3

F              Bb         F                 Bb
Learnin on the four lap.  Dirty boy shows a sure win.
  F                     Bb                F                Bb
A brick of fives on the five-o.  I made a blind bet in the black tie.

            Bb      F        Bb F / Bb
Learnin' to Live, lovin' to learn.