ADIOS AMIGO - words and music by the Moistboyz
**from the Moistboyz EP

Adios Amigo

Intro

e|---------------------------------------|
B|---------------------------------------|
G|--5-h-7-------5-h-7-------5-h-7-----7--|
D|---------7-----------7-----------7-----|
A|---------------------------------------|
D|---------------------------------------|

Verse

e|------------------------|-------------------|
B|------------------------|-------------------|
G|------------------------|-------------------|
D|--0-0--3--5--6--5--3-3--|--0-0--3--5--6--3--|
A|--0-0--3--5--6--5--3-3--|--0-0--3--5--6--3--|
D|--0-0--3--5--6--5--3-3--|--0-0--3--5--6--3--|

Chorus

e|-------------------------|
B|-----5--7--7----5--5--7--|
G|-----5--7--7----5--5--7--|
D|-----5--7--7----5--5--7--|
A|-----3--5--5----3--3--5--|
D|--0----------------------|

----------
**Tabbed by Andrew
Awesome Sound - Ween Guitar tabs (www.vaxxine.com/mtbhl/ween.htm)