PINK EYE (ON MY LEG) - words and music by Ween
**from the album 'The Mollusk'

Pink Eye (On My Leg) - by Ween

G (couple of times over the bass)

G
e|------------------------------------
b|------------------------------------
g|---5-4------------------------------
d|--------0-7-5-----------------------
a|------------------7-5-3-2-3-5-------
e|---------------7--------------0-5-3-

G
e|------------------------------------
b|------------------------------------
g|---5-4------------------------------
D|--------0-7-5-----------------------
A|------------------7-5-3-2-3-5-7-8-7-
E|---------------7--------------------

A
e|------------------------------------
b|------------------------------------
g|------------------------------------
D|-----7-5----------------------------
A|----------8-7-8-10-8-7--------------
E|--5---------------------------------

C D

**Tabbed by MHWKJONES
Awesome Sound - Ween Guitar tabs (www.vaxxine.com/mtbhl/ween.htm)