Bag Of Fat
Ween
Bonus Track from La Cucaracha

I wish they had put this one on the album. In my opinion, it's some of the funniest lyrics they've written so far. The guitar is pretty bitchin' to boot.
There's some fills that I didn't include but they're mainly based off the solo so have at it.

Intro:

3 times
     E    Eb   D    Eb

e----7----6----5----6--
B----9----8----7----8--
G----9----8----7----8--
D----------------------

    G5     B5   D5      E5
e---------------------------------
B---------------------------------
G---------------------------------
D---------4-4--7-7-7-7--9-9-9-9---
A---5-5---2-2--5-5-5-5--7-7-7-7---
E---3-3---------------------------

Verse:

   E7  B7
e---------
B---------
G--7------
D--6---7--
A--7---6--
E------7--

E7
In your yellow hat
You're looking like a bag of fat
B7
Can you see           E7
You're bigger than a manatee

E7
Liposuck
Cause you're bigger than trailer truck
B7
Dressed like that      E7
You're lookin like a bag of fat

Intro riff x 3

E7
For goodness sake
Take it easy on the chocolate cake
B7
When you eat like that
You're lookin like a bag of fat
E7
Bag of fat
You're lookin like a bag of fat
B7
Dressed like that
You're lookin like a bag of fat

Intro Riff x 3

Solo:

-Most of the double notes are bent a quarter step, ie from 14 to 14.5, this is shown by a ~

e---------10--10------12--10--12--12---10-12-10-12-10----11-11---s/14~-14~-14~-14~-14~---------------------------------------------------------------
B--9s/12----------12----------12--12---12-12-12-12-12----12-12---s/15~-15~-15~-15~-15~---12~--12~----9~--7-----9--7-----7-------9-----11b12------9---
G--9s/13---------------------------------------------------------------------------------12~--12~----9~--7-----9--7-----7-------9-----11b12------9---
D-----------------------------------------------------------------------------------------------------------9--------9--------9---------------9------
A----------------------------------------------------------------------------------------------------------------------------------------------------
E----------------------------------------------------------------------------------------------------------------------------------------------------

e--------------------------------------------------------------------------------------------------------
B------------------------------------------------------------------------7--7---10-----------------------
G----7b8-------7b8------------6--7--6--4--6--4-----4---------------------8--8---11--------7------7----7--
D----7b8---5---7b8--5-----5---7--8--7--5--7--5-----5-------7------7-----------------------6------6----6--
A----------------------7------------------------7----------6------6--------------------7------7-------7--
E-------------------------------------------------------7------7-----------------------------------------

 

E7
In your yellow hat
You're looking like a bag of fat
B7
Can you see          E7
You're bigger than a manatee

E7
Liposuck
Cause you're bigger than a trailer truck
B7
Dressed like that
E7
You're lookin like a bag of fat

E

---
Lyrics + Tab by frakctured