BOOZE ME UP AND GET ME HIGH - words and music by Ween
**Unreleased

For those who haven't heard this one, its a staple of Ween's
live shows, and has a real country feel to it. I'm confident the lyrics
are now right. The solo is more or less a guide to how it goes.

Booze Me Up and Get Me High - by Ween

(rest) E
All that 'schlager at the bar
A
Flakes of gold swim in my brain
E
I ate the worm the night before
A
And tonight I'll probably do it again
E
Shotgun Becks down at the Shore
A
I've got a friend at the liquor store
E
Deaner likes his red wind dry
A
So booze me up and get me high
(rest) E
Booze me up and get me high
A
Why don't you give it a try?
E
Let the bottle do the work
A
To ease my mind and soothe the hurt
(rest) E
Me and George finish the Jack
A
After drinkin' down my last six pack
E
I'm not feelin' bad myself
A
'Cause there's another bottle on the shelf
E
Cribber likes his Guinness in cans
A
And Andrew, he's a tequila man
E
But it don't take much to get me high
A
So booze me up and get me high
(rest) E
Booze me up and get me high
A
Why don't you give it a try?
E
Let the bottle do the work
A B
To ease my mind and soothe the hurt

Solo -- (play verse E A X 4) B

e|==========================================================================
B|=================================================9========================
G|=9=9=9=6=7=6=======6=7=7=7=6=7=6=====9=9=9=6=7=6=====6=7=7=7=6=7=6========
D|=============9===9===============7=================================7==7/9=
A|==========================================================================
E|==========================================================================

Repeat Chorus X 2

**Tabbed by Jerm and Todd
Awesome Sound - Ween Guitar tabs (www.vaxxine.com/mtbhl/ween.htm)

BASS TAB

Booze Me Up And Get Me High
By Ween. This is the Stubbs live cd version it's pretty sketchy too so improvise.

        w          q E s s s e s s e q q e e   q E s s s e e e e q q s s e 3x
||----|-r-|----||----------------------------|------------------------------||
||-4:-|-e-|-7:-||*---------------------------|-----------------------------*||
||-4:-|-s-|-4:-||*-7-7---5-7-7-7-5---7-7-----|-------------------------4-5-*||
||----|-t-|----||--0-0-7-----------7-0-0-2-4-|-5-5-5-5-5-0-5-5-0-5-5-5------||
Verse

  q E s s s e s s e q q e e   q E s s s e s s e e e h   q E s s s e s s e q q e e
|---------------------------|---------------------r-r-|---------------------------|
|---------------------------|---------------------e-e-|---------------------------|
|-7-7---5-7-7-7-5---7-7-----|---------------------s-s-|-7-7---5-7-7-7-5---7-7-----|
|-0-0-7-----------7-0-0-2-4-|-5-5-5-5-5-0-5-5-0-5-t-t-|-0-0-7-----------7-0-0-2-4-|
Chorus

  q E s s s e s s e q E s e e   q E s s s e s s e q q e e   q E s s s e s s e e e h
|-----------------------------|---------------------------|---------------------r-r-|
|-----------------------------|---------------------------|---------------------e-e-|
|-------------------------4-5-|-7-7---5-7-7-7-5---7-7-----|---------------------s-s-|
|-5-5-5-5-5-0-5-5-0-5-5-5-----|-0-0-7-----------7-0-0-2-4-|-5-5-5-5-5-0-5-5-0-5-t-t-|

    q E s s s e s s e q q e e   q E s s s e s s e q E s e e 3x
||----------------------------|------------------------------||
||*---------------------------|-----------------------------*||
||*-7-7---5-7-7-7-5---7-7-----|-------------------------4-5-*||
||--0-0-7-----------7-0-0-2-4-|-5-5-5-5-5-0-5-5-0-5-5-5------||
Verse

  q E s s s e s s e q q e e   q E s s s e s s e e e h   q E s s s e s s e q q e e
|---------------------------|---------------------r-r-|---------------------------|
|---------------------------|---------------------e-e-|---------------------------|
|-7-7---5-7-7-7-5---7-7-----|---------------------s-s-|-7-7---5-7-7-7-5---7-7-----|
|-0-0-7-----------7-0-0-2-4-|-5-5-5-5-5-0-5-5-0-5-t-t-|-0-0-7-----------7-0-0-2-4-|
Chorus

  q E s s s e s s e q E s e e   q E s s s e s s e q q e e   q E s s s e s s e e e h
|-----------------------------|---------------------------|---------------------r-r-|
|-----------------------------|---------------------------|---------------------e-e-|
|-------------------------4-5-|-7-7---5-7-7-7-5---7-7-----|---------------------s-s-|
|-5-5-5-5-5-0-5-5-0-5-5-5-----|-0-0-7-----------7-0-0-2-4-|-5-5-5-5-5-0-5-5-0-5-t-t-|

    q E s s s e s s e q q e e   q E s s s e s s e q E s e e 3x
||----------------------------|------------------------------||
||*---------------------------|-----------------------------*||
||*-7-7---5-7-7-7-5---7-7-----|-------------------------4-5-*||
||--0-0-7-----------7-0-0-2-4-|-5-5-5-5-5-0-5-5-0-5-5-5------||
Solo

  q E s s s e s s e q q e e   q E s s s e e e e e h   q E s s s e s s e q q e e
|---------------------------|-------------------r-r-|---------------------------|
|---------------------------|-------------------e-e-|---------------------------|
|-7-7---5-7-7-7-5---7-7-----|-------------------s-s-|-9-9---7-9-9-9-7---9-9-----|
|-0-0-7-----------7-0-0-2-4-|-5-5-5-5-5-0-5-6-7-t-t-|-----9-----------9-----4-6-|
Chorus

  q E s s s s s s s e q e s s s s   q E s s s e s E q q e e
|---------------------------------|-------------------------|
|---------------------------------|-------------------------|
|-----------------------------6-7-|-9-9-9-9-9-------9-9-----|
|-7-7-0-7-7-7-0-7-7-0-7-7-7-7-----|-----------9-9-9-----4-6-|

  q E s s s s s s s e e e h   q E s s s e s s e q E s e e
|-----------------------r-r-|-----------------------------|
|-----------------------e-e-|-----------------------------|
|-------------------3-4-s-s-|---------------------------3-|
|-7-7-7-7-7-7-7-7-7-----t-t-|-4-4-4-4-4-4-4-4-4-4-4-4-6---|

  q E s s s s s s s e q q e e   q E s s s e s s e q E s e e
|-----------------------------|-----------------------------|
|-----------------------------|-----------------------------|
|-4-4-4---4-4---4-4---4-4-4-4-|---------------------------3-|
|-------4-----4-----4---------|-4-4-4-4-4-4-4-4-4-4-4-4-6---|-

  q E s s s s s s s s e E h
|-----------------------r-r-||
|-----------------------e-e-||
|-4-4---4-6-4---4-4---4-s-s-||
|-----4-------4-----6---t-t-||