#----------------------------------PLEASE NOTE---------------------------------#
#This file is the author's own work and represents their interpretation of the #
#song. You may only use this file for private study, scholarship, or research. #
#------------------------------------------------------------------------------#

================================================================================
Title : Final Alarm?
Artist : WeeN
Album : ???????
================================================================================

It's about time that i did something for someone other than myself. I don't know if
WeeN wrote this song or not, but it is cool. They played it when i saw them. I know
the solo (or at least i did a few months ago) but I lost my copy of the song so all
that you see is from memory. Listen to get the timing right, especially the part where
Claude sings. I didn't feel like adding in all that blank space. True. Hope it works.

 

intro main part change up

E|----------------------|-------------------------------|---------------
B|----------------------|-------------------------------|-3-------3-----
G|----------------------|-------------------------------|-2-------2-----
D|-2-2------------------|-4-4/5-4-4-4-------------------|-0-------0-----
A|-2-2--------0-2-0---0-|-2-2/3-2-2-2-3p2p0---0-2-0---0-|---3p2p0---3p2p
E|-0-0--0-2-3-------3---|-------------------3-------3---|---------------

 

part where Claude sings

E|-------------------|----------------------------------------
B|---3-------3-------|----------------------------------------
G|---2-------2-------|---------------------2-2--2-2--2-2--2-2-
D|---0-------0-------|-2-2--2-2--2-2--2-2--2-2--2-2--2-2--2-2-
A|-0---3p2p0---3p2p0-|-2-2--2-2--2-2--2-2--0-0--0-0--0-0--0-0-
E|-------------------|-0-0--0-0--0-0--0-0---------------------

Legend
------

h = hammer-on
p = pull-off
b = bend
r = bend release
/ = slide up/down
<5> = natural harmonic
[5] = artifical harmonic
~ = vibrato
tr = trill

***Lyrics*** by Nate

Your break the seal that steals the sky
bequeath my love it's time to fly
a fatal kiss a tragic flaw
and in a glimpse you stain the law

and in the night it's time to flee
we'll fly by night and sail by sea
we are the children borne to arms
screaming the final alarm

**Tabbed by dHam
Awesome Sound - Ween Guitar tabs (www.vaxxine.com/mtbhl/ween.htm)