STRIPING THE WHITE LILY - words and music by Ween
**An Outtake from The Pod

Definitely one of the most awkward tunes I've heard from the massive
repetoire. This should've been their breakthrough hit. It's so radio
friendly. NOT! It still should be #1 across the globe, though.

Just listen to the song to get the timing, etc.

Striping The White Lily - by Ween

Eb
E----------------------------------
B----------------------------------
G--8----8--X-X-X-X-X-X-X-X-X-X-X-X-
D--8----8--X-X-X-X-X-X-X-X-X-X-X-X-
A--6----6--X-X-X-X-X-X-X-X-X-X-X-X-
E----------------------------------

Bb7
E----------------------------------
B----------------------------------
G--7----7----7-7-7-----------------
D--6----6----6-6-6-----------------
A--8----8----8-8-8-----------------
E--6----6----6-6-6--etc.-----------

Voice 1: What are you doing? Taping me?
Voice 2: Huh?
Voice 1: Are you taping me?
Voice 2: I'm trying.
Voice 1: Well, what are you going to do with my
voice?
Voice 2: Huh?
Voice 1: What'll you do with my voice?
Voice 2: I don't know what we're gonna do with your
voice.
Voice 3: What day is it, Simon?
Voice 2: What--What month is it? Can you tell me?
Voice 1: What?
Voice 2: What month is it?
Voice 3: What day is it, Simon?
Voice 1: It's, uh, November.
Voice 2: Huh?
Voice 1: November.
Voice 2: November what?
Voice 1: Uhhh... 18th, I think.
Voice 3: November 17th, Simon.
Voice 2: Do you think you're in tune, you think?
Where are you, man?
(Music kicks in... well, I don't know if "kicks" is
the right word)
Voice 1: In my room.
Voice 2: And you're loud in the room. I stripe the
white lily. I'm
striping the white lily.
Voice 3: (says something about Simon, I think)
Voice 2: I stripe the white lily.

**Tabbed by Peter Cook
Awesome Sound - Ween Guitar tabs (www.vaxxine.com/mtbhl/ween.htm)