HOMO RAINBOW - words and music by Ween
**from the album "Chef Aid"

I myself haven't heard this song yet, but Beanween sent in some tabs for it
and I know its available for download at various Ween sites. Bart sent in
the lyrics, taken from Australian Dan: http://www.box.net.au/~dan/ween/
There's also two versions of the solo, the second one by smedge.

Homo Rainbow

Intro:
e|-X----X----|
B|-1----0----|
G|-2----2----|
D|-3----3----|
A|-3----3----|
E|-1----1----|

Verse:
e|-X----X----X----X----6----5-|
B|-1----0----1----0----6----5-|
G|-2----2----2----2----7----5-|
D|-3----3----3----3----8----7-|
A|-3----3----3----3----8----7-|
E|-1----1----1----1----6----5-|

Chorus:
e|-6----5----3----5----8--|
B|-6----5----3----5----8--|
G|-7----5----4----5----9--|
D|-8----7----5----7----10-|
A|-8----7----5----7----10-|
E|-6----5----3----5----8--|

Solo:
e|-13-13-13---8-8-10-8-10-8-8---13-13-13---8-8-10-8-10-8-8----------------|
B|--------------------------------------------------------------11-11--10-|
G|------------------------------------------------------------------------|
D|------------------------------------------------------------------------|
A|------------------------------------------------------------------------|
E|------------------------------------------------------------------------|

Solo: (version 2)
e|-13-13-13-----------------------13-13-13----------------------------------|
B|----------13-13-15-13-15-13-13-----------13-13-15-13-15-13-13--11-11-10-13|
G|--------------------------------------------------------------------------|
D|--------------------------------------------------------------------------|
A|--------------------------------------------------------------------------|
E|--------------------------------------------------------------------------|

many colours in the homo rainbow
don't be afraid to let your colours
shine
many colours in the homo rainbow
show me yours i'm gonna show you
mine

if u find your pot of gold
then every little thing
is gonna work out fine
in the homo rainbow

many colours in the homo rainbow
pick any shade from black to yellow

many colours in the homo rainbow
warm embrace and a kind hello

if u find your pot of gold
then every little thing
is gonna work out fine
in the homo rainbow

(guitar solo)

if u find your pot of gold
then every little thing
is gonna work out fine
in the homo rainbow

every single colour
every walk of life
....... changin' sizes
every day and nite
from the golden shores of Kansas
to the middle of Japan
reach around your soul
and love your fellow man

(spoken)
many colours in the homo rainbow
don't be afraid to let your colours shine
don't be ashamed of what god made u

***Version 2***

Homo Rainbow

Intro:
e|-X----X----|
B|-1----0----|
G|-2----2----|
D|-3----3----|
A|-3----3----|
E|-X----X----|

Verse:
e|-X----X----X----X----1----0-|
B|-1----0----1----0----3----1-|
G|-2----2----2----2----3----2-|
D|-3----3----3----3----3----2-|
A|-3----3----3----3----1----0-|
E|-X----X----X----X----X----X-|

Chorus:
e|-1----0----3----0----0--|
B|-3----1----3----1----1--|
G|-2----2----3----2----0--|
D|-0----2----5----2----2--|
A|-X----0----5----0----3--|
E|-X----X----3----X----X--|

***Version 3*** by Weenzer

you may wish to condense this to ensure that it fits on the page.

e|-13-13-13---8-8-10-8-10-8--------13-13-13---8-8-10-8-10-8-8---------------13-11-13-8-11--|
B|------------------------------------10--------------------------------------------10-11--|
G|-----------------------------------------------------------------------------------------|
D|-----------------------------------------------------------------------------------------|
A|-----------------------------------------------------------------------------------------|
E|-----------------------------------------------------------------------------------------|

**tabbed by Beanween and Magicalpig
Awesome Sound - Ween Guitar tabs (www.vaxxine.com/mtbhl/ween.htm)