WHO DAT - words and music by Ween
**White Pepper/eastwest japan cd bonus track*

This song is piano with what sounds to me to be -
Accordion doing the main riff with piano.
Hopefully you have the recording to ear it out yourself.

Who Dat - by Ween

WHO DAT by Ween
White Pepper/eastwest japan cd bonus track*
Recorded version seems to be tuned down 1/2 step

INTRO (is piano played slowly)

Fmaj7 G
E----0---------------0------------------0----
B----1-----------1------1---------------3----
G----2-------2-------------2------------4----
D----3---3---------------------3--------5----
A----3----------------------------------5----
E----1----------------------------------3----

(Tempo switches from slow piano intro to upbeat marching tempo. All
piano with an accordion (I might be wrong on that) playing main riff.)

Main Riff (Marching band feel, upbeat, snare rolls with cymbal crashes)
D string=piano part / E&B string=accordion part

C chord strummed w/open e string
E--------0----0-----1----0----0--------0--------0-------1--0--------------0----
B---4-----------4-------------------4-----------------4---------------4----------
G-----------------------------------------------------------------------------------
D---1---2----2-1---3----2----2----1--2--------2---1---3--2-------1-----2----
A-----------------------------------------------------------------------------------
E-----------------------------------------------------------------------------------

G chord
E--0------1----0--0--------0--0------------1------0-0-----------------0---------
B-----4-----------------4-------------4------------------3--3-------1------3---3-
G------------------------------------------------------------------------------------
D--2--1--3----2--2----1---2--2-----1-----3-----2-2--0---0-----------2--0--0-
A----------------------------------------------------------------------3------------
E------------------------------------------------------------------------------------

G chord continues
E---------------------0----------------------------------0----------------------------
B--2---3----3---2-------3--2-----3---------3----2--------3--3----1-----3--------
G-------------------------------------------------------------------------------------
D------0----0-------2---0---------0--------0----------2---0--0----------0--------
A--3-------------3----------3---------------------3-----------------3--------------
E-------------------------------------------------------------------------------------

G chord continues repeat intro (slow piano)
E--------------------------------------------0-------------0--------------0-----------
B--------------------------------------------1----------1----1-----------3--------------
G--------------------------------------------2-------2---------2---------4--------------
D--0--0----------2-----0-------------------3----3---------------3------5--------------------
A-----------3--------------3--3-----0------3----------------------------5-----------------
E---------------------------------3----------1----------------------------3------------
(Fmaj7) (G)
Repeat Main Riff w/lyrics

C chord strummed w/open e string
E--------0----0-----1----0----0--------0--------0-------1--0--------------0----
B---4-----------4-------------------4-----------------4---------------4----------
G-----------------------------------------------------------------------------------
D---1---2----2-1---3----2----2----1--2--------2---1---3--2-------1-----2----
A-----------------------------------------------------------------------------------
E-----------------------------------------------------------------------------------
Who Dat tellin me those lies Brother both my eyes ain't closed yet

G chord
E--0------1----0--0--------0--0------------1------0-0-----------------0---------
B-----4-----------------4-------------4------------------3--3-------1------3---3-
G------------------------------------------------------------------------------------
D--2--1--3----2--2----1---2--2-----1-----3-----2-2--0---0-----------2--0--0-
A----------------------------------------------------------------------3------------
E------------------------------------------------------------------------------------
Got a nice disguise But I know your really all wet. I'm atuned to this

G chord continues
E---------------------0----------------------------------0----------------------------
B--2---3----3---2-------3--2-----3---------3----2--------3--3----1-----3--------------------
G-----------------------------------------------------------------------------------
D------0----0-------2---0---------0--------0----------2---0--0----------0------------------
A--3-------------3----------3---------------------3-----------------3--------------------
E-----------------------------------------------------------------------------------
Nothing you can do will make me fall. Got a date to keep. You missed

G chord continues repeat intro (slow piano)
E--------------------------------------------0-------------0--------------0-----------
B--------------------------------------------1----------1----1-----------3--------------
G--------------------------------------------2-------2---------2---------4--------------
D--0--0----------2-----0-------------------3----3---------------3------5--------------------
A-----------3--------------3--3-----0------3----------------------------5-----------------
E---------------------------------3----------1----------------------------3------------
the seat and pissed on the wall. (Fmaj7) (G)

Repeat main riff w/lyrics

(C chord)
What Dat
Crawlin through the phone
Beggin me to perform my very best
Call the publisher (G chord)
Sak him to advance my next check
I'm atuned to this
Certainly I'm not used to this
I'm getting fat and I'm getting old
My little girl is turning four months old

Repeat intro
Repeat main riff without any lyrics
Repeat intro
Repeat main riff w/lyrics

(C chord)
Who you
Spooky eyes that turn
Look down at the ground when I try to talk
Maybe I should try
Maybe I should take another walk
I'm atuned to this
Maybe you'd like to see me fall down
Might trip and lose my step
But I can swim and you won't see me drown.

Repeat intro
End intro with a C chord

**Tabbed by Kirby B
Awesome Sound - Ween Guitar tabs (www.vaxxine.com/mtbhl/ween.htm)