CHOCOLATE TOWN - words and music by Ween
**from the album "Quebec"

Jordan notes: ween plays it down a half step on the
cd and the second chord in the verse is actually a
half diminished chord or minor seven flat five.

Chocolate Town - by Ween

Here are the shapes used:
With the G and the D/F# it's really the lower notes only that are important

A Bdim D Bmin6 G D/F# Emin
|-----------2---2----------------0-----------------------
|--2--3-----3---3------3---3-----0-----------------------
|--2--2-----2---0------0---2-----0-----------------------
|--2--3-----0----------0---0-----2-----------------------
|--0--2---------2----------------2-----------------------
|----------------------3---2-----0-----------------------

Intro: Strum A and embellish by playing open B string and then
hammering back down on 2nd fret

VERSE1:
A Bdim
Couldn't taste the taste that I was tastin'
A Bdim
Couldn't hear the waste that I was makin'
D Bmin6 A G D/F#
Tired of the life I was facin'

A G D/F#

VERSE 2:
A Bdim
Couldn't tell one from another
A Bdim
Couldnt hide a secret from my mother
D Bmin6 A G D/F#
Any other mother wouldnt bother

A G D/F#

CHORUS:
Emin
Makin' time, breakin' ground
A G D/F#
Sail brown bay to chocolate town

A G D/F#

VERSE3:
A Bdim
Got me on the porch I'm in the front row
A Bdim
Says "shits for real" then like I dont know
D Bmin6 A G D/F#
Get your punk ass back to the dog show

A G D/F#

CHORUS:
Emin
Makin' time, breakin' ground
A G D/F#
Sail brown bay to chocolate town

A G D/F#

SOLO over a verse/chorus

VERSE4:
A Bdim
A new breath I feel the grip releasin'
A Bdim
Scrapin' my guts off of the ceiling
D Bmin6 A G D/F#
I got that sunny bunny feelin'

A G D/F#

CHORUS:
Emin
Makin' time, breakin' ground
A G D/F#
Sail brown bay to chocolate town

A G D/F#

Emin
Makin' time, breakin' ground
A G D/F#
Greyhound bus to chocolate town

A G D/F#

A G D/F#

A

***Version 2*** by Nelson Provazi

on the solo part, the verse/chorus actually goes like this:

D (hold)
A G D/F# (2 x)

Emin (hold)
A G D/F# (2x)

Also, the ending part is different:

...Greyhound bus to chocolate town...

G A (3 x)

G Dsus4

***Solo*** Tabbed by brewerdave2003@yahoo.com
from the Live In Chicago DVD

Legend:
/ slide up
\ slide down
h hammer
p pull off
/
/ rake strings
/
^ bend up slightly

So, this is my first attempt at tabbing. It's not perfect,
but it's pretty damn close. I didn't notate the length of the notes,
but it's pretty obvious. Deaner actually plays this midway up the neck,
but I figured this would be easier for most people. Enjoy, mangs.

***Version 3 solo***

I just wanted to add somethings, other then that its sounds good. thats how deaner plays it on the DVD.
questions e-mail white_r466it@hotmail.com
|-----------------------------------------------------------------------
|-----------------------------------------------------------------------
|-----------------------------------------------------------------------
|-----------------------------------7----------------------------------
|----5-5s9-9-9-9-7-5--5h7-7-7-7-7s9---9-7-5-5h7-7-7-7-5----------0h2-0~
|-5h7----------------------------------------------------5s9-5-0h2------

|---------------------------------9--7--5
|----------------------------------------
|---------------------------------9--7--6
|----------------------------------------
|----5-5s9-9-9-9-7-5-5h7-7-7-7-5-------
|-5h7------------------------------------

|-5--5-5---------------------------------7-------
|-/------7-5--------------------------8------8---
|-/----------7-6--------------------9----------9-
|-/---------------7------------------------------
|-/------------------7\5--0----------------------
|-----------------------------3--0---------------

|-9p7------9p7-|------7-----|-----5-----7-----|-9\7---7\---5-|
|-----8--------|-8------8---|-----------------|--------------|
|-------9------|---9------9-|-5/6---6/7---7/9-|-----7----6---|
|--------------|------------|-----------------|--------------|
|--------------|------------|-----------------|--------------|
|--------------|------------|-----------------|--------------|

|-5--5-5---------|--------|-0-||
|--------7-5-----|--------|-2-||
|------------7-6-|--------|-2-||
|----------------|-7------|-2-||
|----------------|--------|-0-||
|----------------|-----3^-|---||

***bass tabs***

Tabbed by brewerdave2003@yahoo.com

|--------| |----------------|-------------|-------------|
2|--------|4 |----------------|-------------|-------------|
|--------| |----------------|-------------|-----2-------|
4|------0-|4 |-2/4-4-4-4-2-0--|-0h2-2-2-2-0-|-2/4---4-2-0-|
|-0h2----| |----------------|-------------|-------------|
|--------| |----------------|-------------|-------------|

|-----------------|------|------------|---|------------|
|-----------------|------|------------|---|------------|
|-----------------|------|------------|---|------------|
|-0h2-2-2-2-0-----|----_____----------|-_____------0-0-|
|-------------4-2-|-4--0-|-0------0h2-|-0-|-0--0h2-----|
|-----------------|------|----0h2-----|---|------------|

|---------------|-------------|---|-9--7-|-5-|
|---------------|-------------|---|------|---|
|---------------|-------------|---|-9--7-|-6-|
|-2/4-4-4-4-2-0-|-0h2-2-2-2-0-|-0-|------|---|
|---------------|-------------|---|------|---|
|---------------|-------------|---|------|---|

|-5--5-5---------|--------|-------|--------|-7-------|
|-/------7-5-----|--------|-------|------8-|-----8---|
|-/----------7-6-|--------|-------|----9---|-------9-|
|-/--------------|-7------|-------|--------|---------|
|-/--------------|----7\5-|-0-----|--------|---------|
|----------------|--------|-----2-|-0------|---------|

|-9p7------9p7-|------7-----|-----5-----7-----|-9\7---7\---5-|
|-----8--------|-8------8---|-----------------|--------------|
|-------9------|---9------9-|-5/6---6/7---7/9-|-----7----6---|
|--------------|------------|-----------------|--------------|
|--------------|------------|-----------------|--------------|
|--------------|------------|-----------------|--------------|

|-5--5-5---------|--------|-0-||
|--------7-5-----|--------|-2-||
|------------7-6-|--------|-2-||
|----------------|-7------|-2-||
|----------------|--------|-0-||
|----------------|-----3^-|---||

***Bass Tab***by Geoff

Chocolate Town
bass by Dave

q q q q 4x q q q q q q q q q q q q q q q q q q q q
G---||----||-----------||---------|---------|---------|---------|---------|----------
D---||-4:-||*-6-6-----*||-6-6-----|-6-6-----|---------|---------|-6-6-----|----------
A---||-4:-||*-----6-6-*||-----6-6-|-----6-6-|-----4-4-|---------|-----6-6-|----------
E---||----||-----------||---------|---------|-6-6-----|-6-6-1-1-|---------|----------
Intro Verse 1

q q q q q q q q q q q q w w w h h q q q q q q q q
G-----------|---------|---------|---|---||----|------||---------|---------|----------
D---6-6-----|---------|---------|---|---||*---|-----*||-6-6-----|-6-6-----|----------
A-------6-6-|-----4-4-|---------|-4-|---||*---|-----*||-----6-6-|-----6-6-|----------
E-----------|-6-6-----|-6-6-1-6-|---|-6-||--4-|-2-1--||---------|---------|----------
Verse 2

q q q q q q q q q q q q q q q q q q q q q q q q w w w
G-----------|---------|---------|---------|---------|---------|---|---||----|--------
D-----------|---------|-6-6-----|-6-6-----|---------|---------|---|---||*---|--------
A-------4-4-|---------|-----6-6-|-----6-6-|-----4-4-|---------|-4-|---||*---|--------
E---6-6-----|-6-6-1-1-|---------|---------|-6-6-----|-6-6-1-6-|---|-6-||--4-|--------

h h h e Q 3x h q q w h h q q q q q q q q q q q q
G--------||-||-----------||-------||----|------||---------|---------|---------|------
D-------*||-||*---6--h8-*||-------||*---|-----*||-6-6-----|-6-6-----|---------|------
A-------*||-||*-6-------*||-6-----||*---|-----*||-----6-6-|-----6-6-|-----4-4-|------
E---2-1--||-||-----------||---6-1-||--4-|-2-1--||---------|---------|-6-6-----|------
Chorus Verse 3

q q q q q q q q q q q q q q q q q q q q w w w h h
G-----------|---------|---------|---------|---------|---|---||----|------||----------
D-----------|-6-6-----|-6-6-----|---------|---------|---|---||*---|-----*||----------
A-----------|-----6-6-|-----6-6-|-----4-4-|---------|-4-|---||*---|-----*||----------
E---6-6-1-1-|---------|---------|-6-6-----|-6-6-1-6-|---|-6-||--4-|-2-1--||----------

h e Q 3x h q q q H h h h h h h h h h q q q H
G---||-----------||-------||------|------||-----|-----|-----|-------||------|--------
D---||*---6--h8-*||-------||*-----|-----*||---6-|---6-|---6-|-------||*-----|--------
A---||*-6-------*||-6-----||*-----|-----*||-4---|-4---|-4---|-4-----||*-----|--------
E---||-----------||---6-1-||--4-4-|-2-1--||-----|-----|-----|---6-1-||--4-4-|--------
Chorus Solo

h h h h h h h h h q q q H h h h e Q 3x h q q q H
G--------||-----|-----|-----|-------||------|------||----------||-------||------|----
D-------*||---6-|---6-|---6-|-------||*-----|-----*||---6--h8-*||-------||*-----|----
A-------*||-4---|-4---|-4---|-4-----||*-----|-----*||-6-------*||-6-----||*-----|----
E---2-1--||-----|-----|-----|---6-1-||--4-4-|-2-1--||----------||---6-1-||--4-4-|----

h h q q q q q q q q q q q q q q q q q q q q q q q q q q q q
G--------||---------|---------|---------|---------|---------|---------|---------|----
D-------*||-6-6-----|-6-6-----|---------|---------|-6-6-----|-6-6-----|---------|----
A-------*||-----6-6-|-----6-6-|-----4-4-|---------|-----6-6-|-----6-6-|-----4-4-|----
E---2-1--||---------|---------|-6-6-----|-6-6-1-1-|---------|---------|-6-6-----|----
Verse 4

q q q q w w w h h h e Q 3x h q q q H h h
G-----------|---|---||----|------||-||-----------||-------||------|------||----------
D-----------|---|---||*---|-----*||-||*---6--h8-*||-------||*-----|-----*||----------
A-----------|-4-|---||*---|-----*||-||*-6-------*||-6-----||*-----|-----*||----------
E---6-6-1-6-|---|-6-||--4-|-2-1--||-||-----------||---6-1-||--4-4-|-2-1--||----------
Chorus

h e Q 3x h q q q H h h h e Q 3x h q q h h h h
G---||-----------||-------||------|------||-||-----------||-------||------|-----|----
D---||*---6--h8-*||-------||*-----|-----*||-||*---6--h8-*||-------||*-4---|-----|----
A---||*-6-------*||-6-----||*-----|-----*||-||*-6-------*||-6-----||*---4-|---4-|----
E---||-----------||---6-1-||--4-4-|-2-1--||-||-----------||---6-1-||------|-2---|----
Chorus

h h h h 3x h h h h w
G-------|------||-----|-----|-----|-r-||---------------------------------------------
D---6---|-6---*||-4---|-----|-----|-e-||---------------------------------------------
A-----6-|---6-*||---4-|---4-|-(4)-|-s-||---------------------------------------------
E-------|------||-----|-2---|-----|-t-||---------------------------------------------

**Tabbed by magicalpig
Awesome Sound - Ween Guitar tabs (www.vaxxine.com/mtbhl/ween.htm)