DID U SEE ME? - words and music by Ween
tabbed by frakctured

Dropped D tuning:

eBGDAD

Intro:

Dm Am A7

The Dm has a hammer on from the open e string to the first fret and the Am is played with an open b string:
     Dm           Am            A7
e:---1---0h1-1----0---0-0-------0--3---
B:---3---3---3----0---1p0-------2--2---
G:---2---2---2----2---2-2-------0--2---
D:---0-------0----2---2-2-------2--2---
A:----------------0---0-0-------0--0---
D:-------------------------------------
-
Lead (0:55 in):

Played slowly - take time with the bends
Repeatedly pick notes in parentheses while bending

e:--------------------------------------------------------------------------------------------------
B:--8b10-(10)-10r8--8-6-------6------6--5----5h6-----8-8b10--------8---------------------------------
G:----------------------7-5-7---7------------------------------7h9----9--7b9-(9)--5h7-5--------------
D:---------------------------------------------------------------------------------------7-5-7-------
A:---------------------------------------------------------------------------------------------------
D:---------------------------------------------------------------------------------------------------

e:-------------------1-----------------
B:-------------------3----------3------
G:---------0h2s5-2---2----2-0h2---2----
D:------------------------------------- etc, mess around with the intro chords, distorted guitar uses the same riff when it comes in.
A:-------------------------------------
D:-2b3r0-------------------------------

Verse
Riff:

e:-------------------1-----------------
B:-------------3-----3----------3------
G:---------0h2---2---2----2-0h2---2----
D:-------------------------------------
A:-------------------------------------
D:-2b3r0-------------------------------

Dm (Riff)
Did you see me?
                          C
Come down on the sand and sea

G
Believe me

Dm (Riff)
Did you see me?       C
Waving it free in the tree
G
Believe me

Dm (Riff)
Did you see me?
                      C
Flying through the galaxy

G
Believe me

Post verse riff:
Guitar 1:
e:---------------------------------------------------------
B:---------------------------------------------------------
G:--7-6-7--------------------------------------------------
D:----------7-6-7------------------------------------------
A:-----------------8-7-8-7-5----3----3-2-3-5-3-2-3-2-------
D:---------------------------------------------------3-2-0-

Guitar 2:
*pinch harmonic on the first note each time
e:-----------------------------------------------------------
B:-----------------------------------------------------------
G:-*7-6-7--7-6-7---------------------------------------------
D:----------------7-6-7-6-------2----------------------------
A:------------------------5-----3----3-2-3-5-3-2-3-3-2-1-0---
D:-----------------------------------------------------------

Outro - Repeat Chorus chords, no extra riff.

***Version 2
the intro is just a basic idea. just toy around with the Dm
and Am. the break will be coming soon and all the lyrics
would greatly be appreciated.

Note: i added the lyrics but i dunno if they're correct

Did U See Me? - by Ween

Here's the intro for "did you see me",

E-]==5=5=5=5==========]==5=5=5=5=========]
B-]==6=6=6=6==========]==5=5=5=5=========]
G-]==7=7=7=7=====7=5==]==5=5=5=5=========]
D-]==7=7=7=7=5=7======]==7=7=7=7====7=5==]
A-]==5=5=5=5==========]==7=7=7=7=5=7=====]
E-]==5=5=5=5==========]==5=5=5=5=========]
Dm x2 Am x2 (repeat all)

Dm
Did you see me?
Cm Am
Flying through the gal - a - xy

Did u see me?
Come down on the sound and see
Believe me
Did u see me?
Waving it free in the tree
Believe me
Did u see me?
Flying thru the galaxy
Believe me
Did u see me?
Waving it free in the tree
Believe me

(break)

Did u see me?
Flying thru the galaxy
Believe me
Did u see me?
Waving it free in the tree
Believe me

***Version 3 by Sean Westmoreland

I think the chord progression during the vocal part of Did you see me? Is..

Dm
Did you see me

Dm F F C
Flying through the ga la xy

C G
Believe me

**Tabbed by mole
Awesome Sound - Ween Guitar tabs (www.vaxxine.com/mtbhl/ween.htm)